High Ball Shooter

с альбома Stormbringer
Guitar 1 only
e|---------------------------------------------------------------|
B|---------------------------------------------------------------|
G|---------------------------------------------------------------|
D|-----5-7-7--x-7-----5-7-7--x-7-----5-7-7--5--------------------|
A|-/7--------------7--------------7-----------7--5--3--0---------|
E|---------------------------------------------------------------|

Guitar 1 and 2
e|---------------------------------------------------------------|
B|---------------------------------------------------------------|
G|---------------------------------------------------------------|
D|-----5-7-7--x-7-----5-7-7--x-7-----5-7-7--5--------------------|
A|-/7--------------7--------------7-----------7--5--3--0---------|
E|---------------------------------------------------------------|

e|---------------------------------------------------------------|
B|---------------------------------------------------------------|
G|---------------------------------------7^8-7-5-7--5~-----------|
D|-----5-7-7--x-7-----5-7-7--x-7-----5-7---------------7---------|
A|-/7--------------7--------------7------------------------------|
E|---------------------------------------------------------------|

Guitar 1 and 2
e|---------------------------------------------------------------|
B|---------------------------------------------------------------|
G|---------------------------------------------------------------|
D|-----5-7-7--x-7-----5-7-7--x-7-----5-7-7--5--------------------|
A|-/7--------------7--------------7-----------7--5--3--0---------|
E|---------------------------------------------------------------|

e|---------------------------------------------------------------|
B|---------------------------------------------------------------|
G|---------------------------------------------------------------|
D|-----5-7-7--x-7-----5-7-7--x-7-----5-7-7--5--------------------|
A|-/7--------------7--------------7-----------7--5--3--0---------|
E|---------------------------------------------------------------|


Guitar 1 and 2
e|---------------------------------------------------------------|
B|---------------------------------------------------------------|
G|---------------------------------------------------------------|
D|-----5-7-7--x-7-----5-7-7--x-7-----5-7-7--5--------------------|
A|-/7--------------7--------------7-----------7--5--3--0---------|
E|---------------------------------------------------------------|

e|---------------------------------------------------------------|
B|----8-10-10--x-10---8-10-10--x-10---8-10--------------10~------|
G|-/9---------------9---------------9------9--7----7-------------|
D|----------------------------------------------10---10----------|
A|---------------------------------------------------------------|
E|---------------------------------------------------------------|

На правах рекламы:

купить пластиковую упаковку