Love Child

с альбома Come Taste the Band
Author/Artist: Deep Purple
Title: Love Child
Album: Come Taste The Band
Transcribed by: Krzysztof Chyba
Email: chriss_29@hotmail.com

  Intro: (Tommy Bolin)                 x4
-|----------------------------------------------------------------------------|
-|----------------------------------------------------------------------------|
-|----------------------------------------------------------------------------|
-|---------2-----5/7--5-------------------------------------------------------|
-|-0--3--5---3-0--------7--0-3-5-3--------------------------------------------|
-|----------------------------------------------------------------------------|

  Verse:        x4                                  x2
-|----------------|--|--------------------------------|-----------------------|
-|----------------|--|--------------------------------|-----------------------|
-|----------------|--|--------------------------------|-----------------------|
-|----------------|--|---------2-----5/7--5-----------|-----------------------|
-|-3-3-3-3--3--3-3|-3|-0--3--5---3-0--------7--0-3-5-3|-----------------------|
-|-1-1-1-1--1--1-1|-3|--------------------------------|-----------------------|

  Bridge:            x4
-|----------------------------------------------------------------------------|
-|----------------------------------------------------------------------------|
-|----------------------------------------------------------------------------|
-|-3-2------------------------------------------------------------------------|
-|-----5-3-5------------------------------------------------------------------|
-|-----------3---5-5----------------------------------------------------------|

  Ending:
-|----------------------------------------------------------------------------|
-|----------------------------------------------------------------------------|
-|----------------------------------------------------------------------------|
-|----------------------------------------------------------------------------|
-|-0-3-5-3--0-----------------------------------------------------------------|
-|----------------------------------------------------------------------------|

На правах рекламы:

Лучшее предложение на ягуар f pace в спб от официального дилера.