Never a Word

с альбома Bananas
  { hammond intro }                                     
E|-10--8-----8--------|------------|--13--12-10----------10--13------| 
B|-------11-----10--8-|--6--8------|-------------13--10----------13--| 
G|--------------------|-------(9)--|---------------------------------| 
D|--------------------|------------|---------------------------------| 
A|--------------------|------------|---------------------------------| 
E|--------------------|------------|---------------------------------| 
 
E|-10--8-----8--------|------------|--10--12-13------13--12------10--| 
B|-------11-----10--8-|--6--8------|-------------13----------13------| 
G|--------------------|-------(9)--|---------------------------------| 
D|--------------------|------------|---------------------------------| 
A|--------------------|------------|---------------------------------| 
E|--------------------|------------|---------------------------------| 
 
  { guitar1 riff1 - verse } 
E|------------------|----------------|-------------------|-----------| 
B|------------------|----------------|-------------------|-----------| 
G|------------7-----|----------------|-------------------|-----------| 
D|--7---9-10--------|-------9-----7--|--7---9-10--9------|-----------| 
A|---------------10-|-10------10-----|---------------10--|--10--7-7--| 
E|------------------|----------------|-------------------|-----------| 
 
  { guitar1 riff2 - chorus } 
E|---------------|-----------------------|--------------------------| 
B|---------------|-----------------------|--------------------------| 
G|--11--12--12~--|--11--12--12h14p12-11--|--12------9---------------| 
D|---------------|-----------------------|------12-----9--7---------| 
A|---------------|-----------------------|-------------------9--10--| 
E|---------------|-----------------------|--------------------------| 
 
  { guitar2 riff2 - chorus - play along guitar1 riff2 } 
E|--15----------15----------14------|------12--------------------------| 
B|------15----------15--17------12--|--15------13--15--12--10--12--13--| 
G|----------16----------------------|----------------------------------| 
D|----------------------------------|----------------------------------| 
A|----------------------------------|----------------------------------| 
E|----------------------------------|----------------------------------| 
  
  { guitar3 riff3 - play while guitar1 plays riff1 2nd time } 
E|------------------|---------------|---------------|--------------| 
B|------------------|---------------|--10--12-12-12-|-12b13r12p10--| 
G|--11--12--12--12--|--12b14r12p11--|---------------|--------------| 
D|------------------|---------------|---------------|--------------| 
A|------------------|---------------|---------------|--------------| 
E|------------------|---------------|---------------|--------------| 
 
E|---------------|--------15--14h15--15--15s0-| 
B|--10s15-15-15--|-15h17----------------------| 
G|---------------|----------------------------| 
D|---------------|----------------------------| 
A|---------------|----------------------------| 
E|---------------|----------------------------| 
 
  { guitar3 riff4 - play while chorus } 
E|--------------------|----------------------| 
B|-15--13--12---------|----------------------| 
G|-------------14--12-|-12----9--------------| 
D|--------------------|----12---9--7---------| 
A|--------------------|---------------9--10--| 
E|--------------------|----------------------| 
 
  { guitar1 riff5 - play once while chorus } 
E|--17--19--19--| 
B|--------------| 
G|--14--16--16--| 
D|--------------| 
A|--------------| 
E|--------------| 
 
  { guitar1 riff6 - similar to hammond intro but an octave higher } 
E|----------------|----------|------------------|-------------| 
B|----------------|----------|------------------|-------------| 
G|--7--5----5-----|----------|--10--9-7---------|--7--10------| 
D|-------8-----7--|--5--3-5--|-----------10--7--|---------10--| 
A|----------------|----------|------------------|-------------| 
E|----------------|----------|------------------|-------------| 
                                         w/ phaser                  
E|----------------|----------|------------------|--------------------| 
B|----------------|----------|------------------|---------7----------| 
G|--7--5----5-----|----------|--7--9-10-----10--|--9------7----------| 
D|-------8-----7--|--5--3-5--|-----------10-----|-----10--7----------| 
A|----------------|----------|------------------|---------5----------| 
E|----------------|----------|------------------|--------------------|

На правах рекламы:

Заказать уникальные кольца мужские из платины онлайн на сайте.