Talk About Love

с альбома The Battle Rages on…
Talk About Love (Solo)
(Blackmore/Gillan/Glover)
From "The Battle Rages On", 1993
E||----------------------------|----------------------------|
B||----------------------------|----------------------------|
G||--2b2b2b2b-2-2-2b-2b-2------|--0-------------------------|
D||----------------------------|----4-2-0---0-2b-2b-2b-2r---|
A||----------------------------|----------4-----------------|
E||----------------------------|----------------------------|


                                                     
--------------------------------|------------5----7-5-----5-|
--------------------------------|--5b-----7-----------6-7---|
-------------------------2------|---------------------------|
----------2p0--------2h4--------|---------------------------|
--------------2-----------------|---------------------------|
--------------------------------|---------------------------|


                                                           
--------------------------------|----------------------5--|
--6-5h6p5-3--5--3----5-3--------|--3-------------5b-5b-5--|
-------------------------4-2-4--|------4--2---------------|
--------------------------------|-------------------------|
--------------------------------|-------------------------|
--------------------------------|-------------------------|


                        
----------------------||
--3---5--3------------||
----4-----------------||
----------------------||
----------------------||
----------------------||

На правах рекламы:

купить золотая цепь якорное плетение фото в Москве | activator nada dynamite, bun la