The Gypsy

с альбома Stormbringer
Intro:

Fig.1
E------------------|-------------------|-----------------|-----------------|
B------------------|-------------------|-----------------|-----------------|
G--7/9~----7~------|-------------------|-----------------|-----------------|
D------------------|--9--7-----7~------|--7--------------|-----------------|
A------------------|--------10---------|-----10--7---7~~-|--7----7~----7~--|
e------------------|-------------------|-----------------|----10-----------|

|------------------|-------------------|-----------------|-----------------|
|------------------|-------------------|-----------------|-----------------|
|------------------|-------------------|-----------------|-----------------|
|--7---------------|-------------------|-----------------|-----------------|
|----10--7---7~----|--7-----7~-----7~--|-----------------|-----------------|
|------------------|-----10------------|-----------------|-----------------|

E------------------|-------------------|-----------------|-----------------|
B------------------|-------------------|-----------------|-----------------|
G--7/9~----7~------|-------------------|-----------------|-----------------|
D------------------|--9--7-----7~------|--7--------------|-----------------|
A------------------|--------10---------|-----10--7---7~~-|--7----7~----7~--|
e------------------|-------------------|-----------------|----10-----------|

|------------------|-------------------|-----------------|-----------------|
|------------------|-------------------|-----------------|-----------------|
|------------------|-------------------|-----------------|-----------------|
|--7---------------|-------------------|-----------------|-----------------|
|----10----7-7~----|--7-----7~-----7~--|-----------------|-----------------|
|------------------|-----10------------|-----------------|-----------------|



Fig.2
E------------------|-------------------|-----------------|-----------------|
B------------------|-------------------|-----------------|-----------------|
G--7/9~----7~------|-------------------|-----------------|-----------------|
D------------------|--9--7-----7~------|--7--------------|--7--------------|
A------------------|--------10---------|-----10--7---7~~-|-----10--7---7~~-|
e------------------|-------------------|-----------------|-----------------|

|------------------|
|------------------|
|------------------|
|--7---------------|
|----10--7~~-------|
|------------------|

На правах рекламы:

• Уничтожение архива смотри здесь.