You Keep On Moving

с альбома Come Taste the Band
Intro:  Bm   G  Em  Bm

Bm                                   b-------4h5---|
You + keep on moving +              +g----4h6----7-|
      G  Em       Bm
Far away,   far away +
Bm
You keep on moving
      G  Em       Bm
Far away,   far away                                                           Bm

Everyday, wheels are turning
  G  Em          Bm
And the cry...-..still returning 0                    -g----6-5-4~2
Em
Dawn will soon be breaking                            0g---4-6-5-4-7~~
     Bm
The day has just begun
Em
You put your arms around me
Bm
Like a circle 'round the sun$                       -5-7p5-7-4~~
Em
Dance across the seasons
      Bm
To a place that no one knows
      G      A   F#m   Em
Where angels fear to tread

Jonh lord?s solo:
Bm
Tommy entra algumas vezes durante o solo com o acorde de
Bm

Em
Dawn will soon be breaking*                          *e-19~-----------19~-|
     Bm                                               b-----17-17-17------|
The day has just begun                                g---15--------------|
Em
You put your arms around me
Bm
Like a circle 'round the sun


Bm
You keep on moving
      G  Em       Bm
Far away,   far away
Bm
You keep on moving
      G  Em       Bm
Far away,   far away
Bm
Everyday, wheels are turning
  G  Em          Bm
And the cry...=..still returning               =g-4-5-6~--2~~

Solo:
e-------------------------------------------------------------------------------|
b--------------------------------------------------------------------15-17b-17--|b
g---------7~----------7~--5~-7h9p7-4h6p4-5/7/5-7b-7b-7b-7b-5~-5-----------------|
d---7-9-10-----7-9-10----------------------------------------7-7-9-10-----------|
a-------------------------------------------------------------------------------|
E-------------------------------------------------------------------------------|

e19b-19b-19b 16-----------------16-------------16--------------16-------------------------17--19|
b---------------18-15-17-15-14-----15-17-18-20b---15-17-18-20b------15-17-18-20b-18-17-16-------|
g-----------------------------------------------------------------------------------------------|
d-----------------------------------------------------------------------------------------------|
a-----------------------------------------------------------------------------------------------|
E-----------------------------------------------------------------------------------------------|

На правах рекламы:

Узи аппараты и сканеры соноскейп ultrasounds.ru/ultrazvukovye-skanery-sonoscape-kitay.